Welcome to the Double Dare UK tabs pages. We are actually a live pub band performing around Horsham, Sussex, but I have published some of my 600 song tabs on this site for sharing amongst the music community. If you want to copy tabs, simply cut and paste the words off the page and straight into WORD or NOTEPAD. I have worked carefully on many of these TABS to make sure that the chords are shown directly over the words, so the chord change corresponds exactly to the place where you are singing. That means you can play the whole songs straight off the paperwork without having to think about the structure of the song at all. I hope you enjoy these CHORDS, and please check out the many more we have on the SONGS page. Check out my band on the rest of the website too if you are interested...



Snow Patrol

Chasing Cars Eyes Open (2006)

 

 

Verse 1: (slow / picking)

A E D A

We'll do it all, everything, on our own.

A E D A

We don't need, anything, or anyone.

 

Middle 8: (medium / picking)

A E

If I lay here, if I just lay here

D A

Would you lie with me, and just forget the world.

 

Verse 2: (slow / picking)

A E D A

I don't quite know, how to say, how I feel

A E D A

Those three words, I said too much, but not enough.

 

Chorus: (medium / chords)

A E D A

If I lay here, if I just lay here, would you lie with me, and just forget the world.

A E D A

Forget what we're told, before we get too old, show me a garden that's bursting into life.

 

Verse 3: (slow / picking)

A E D A

Let's waste time, chasing cars, around our heads.

A E D A

I need your grace, to remind me, to find my own.

 

 

Chorus: (medium / chords)

 

Bridge: (medium / chords)

A E

All that I am, all that I ever was

D A

Is here in your perfect eyes, they're all I can see

A E

I don't know where, confused about how as well

D A

just know that these things will never change for us at all.

 

Middle 8: (slow / picking)

A E

If I lay here, if I just lay here

D A

Would you lie with me, and just forget the world.

 

 

 

 

define:

vocal: 2 24

TURN UP GUITAR

 
 

 

 

 

 

 

 

 

 

 

 


Intro/Verse:

e|------------------------------------------------------------------|

B|------------------------------------------------------------------|

G|--9-9-9-9-9-9-9-9-9-9-9-9-9-9-9-9-9-9-9-9-9-9-9-9-9-9-9-9-9-9-9-9-|

D|-7-7-7-7-7-7-7-7-7-7-7-7-7-7-7-7-6-6-6-6-6-6-6-6-0-0-0-0-0-0-0-0--|

A|------------------------------------------------------------------|

E|------------------------------------------------------------------|

 

 

 

 

 

 

 

 

 

 

Piano bit:

e|--9---------9---------9----------|

B|----9--10-----9--9/7-----9--10---|

G|---------------------------------|

D|---------------------------------|

A|---------------------------------|

E|---------------------------------|

 

Chorus Riff 1:

e|----------------------------------------------------------------------------------------|

B|-10-10-10-10-10-10-10-10-10-10-10-10-10-10-10-10-10-10-10-10-10-10-10-10-10-10-10-10-10-|

G|-9--9--9--9--9--9--9--9--9--9--9--9--9--9--9--9--9--9--9--9--9--9--9--9--9--9--9--9--9--|

D|-7--7--7--7--7--7--7--7--7--7--7--7--7--6--6--6--6--6--6--6--6--0--0--0--0--0--0--0--0--|

A|----------------------------------------------------------------------------------------|

E|----------------------------------------------------------------------------------------|

 

End Of Chorus Riff:

e|---------------------------------------------|

B|---------------------------------------------|

G|---------------------------------------------|

D|--7-7-7-7--9-9-9-9-11-11-11-11-11-11-11-11---|

A|--x-x-x-x--x-x-x-x--x--x--x--x--x--x--x--x---|

E|--5-5-5-5--7-7-7-7--9--9--9--9--9--9--9--9---|

 

Outro:

e|------------------------------------------------------------------|

B|------------------------------------------------------------------|

G|--9-9-9-9-9-9-9-9-9-9-9-9-9-9-9-9-9-9-9-9-9-9-9-9-9-9-9-9-9-9-9-9-|

D|-7-7-7-7-7-7-7-7-7-7-7-7-7-7-7-7-6-6-6-6-6-6-6-6-0-0-0-0-0-0-0-0--|

A|------------------------------------------------------------------|

E|------------------------------------------------------------------|