Welcome to the Double Dare UK tabs pages. We are actually a live pub band performing around Horsham, Sussex, but I have published some of my 600 song tabs on this site for sharing amongst the music community. If you want to copy tabs, simply cut and paste the words off the page and straight into WORD or NOTEPAD. I have worked carefully on many of these TABS to make sure that the chords are shown directly over the words, so the chord change corresponds exactly to the place where you are singing. That means you can play the whole songs straight off the paperwork without having to think about the structure of the song at all. I hope you enjoy these CHORDS, and please check out the many more we have on the SONGS page. Check out my band on the rest of the website too if you are interested...



                Red Hot Chilli Peppers    Warner Brothers

                Californication           Californication (1999)

 

 

        Am                 F            Am                Fmaj7

        Psychic spies from China try to steal your mind's elation

        Am                F               Am            Fmaj7

        Little girls from Sweden dream of silver screen quotations

        C                     G                   F        D  Am     riff1

        And if you want these kind of dreams it's Californication

 

                 Am          F                Am            Fmaj7

        It's the edge of the world and all of western civilization,

            Am                  F                Am                     Fmaj7

        The sun may rise in the East at least it settles in the final location.

            C                 G                   F         D   Am      riff1

        And if you want these kind of dreams it's Californi-cat-ion

 

        Chorus:

        Am               F            Am                 F

        Pay your surgeon very well to break the spell of aging

        Am                F                 Am               F

        Celebrity skin is this your chin or is that war your waging

        C     G       F                       C    G         F

        First born unicorn                    hard core soft porn

        C        G            D  Am           C        G            D  Am     riff1

        Dream of Cal-i-for-ni-ca-tion         Dream of Cal-i-for-ni-ca-tion

       

        Am                  F                        Am              Fmaj7

        Marry me girl be my fairy to the world be my very own constellation,

          Am                   F                   Am           Fmaj7

        A teenage bride with a baby inside getting high on information.

            C                    G              F         D   Am        riff1

        And buy me a star on the boulevard it's Californi-cat-ion

 

        Am               F                       Am                  Fmaj7

        Space may be the final frontier but it's made in a Hollywood basement

            Am             F                        Am                   Fmaj7

        and Cobain can you hear the spheres singing songs off station to station.

            C             G             F         D   Am        riff1

        And Alderon's not far away it's Californi-cat-ion.

 

        Chorus:

        Am                 F                 Am              F

        Born and raised by those who praise, control the population

             Am          F                Am              F

        Well everybody’s been there and I don’t mean on vacation

        C     G       F                       C    G         F

        First born unicorn                    Hard core soft porn

        C             G     D   Am            C             G     D   Am

        Dream of Cali-forni-cat-ion           Dream of Cali-forni-cat-ion

 

        Am                     F                      Am          Fmaj7

        Destruction leads to a very rough road but it also breeds creation,

            Am                   F                     Am                  Fmaj7

        And earthquakes are to a girl's guitar they're just another good vibration

            C                    G                   F          D   Am

        And tidal waves couldn't save the world from Cali-forni-cat-ion

 

 

 

 

 

 

 

 

 

 

 

e--------------------------------------------------------------------------------1----

b----------5---------------------------------------------------------------3-----3----

g----------------------------------4----------------------2----------------------2----

d-----5---------5-----------------------------------------------------0----------0----

a-3---------------------------5----------5-----------3---------3----------------------

e----------------------3------------------------1-------------------------------------

And  if you  want these  kinds   of  dreams it’s     Cal     i   for   ni     ca  tion

 

 

define:

Chords - Am 002210   Fmaj7 133210   C 032010    Dm 000231  G: 320001  Dm9: 0560

        e--------------------------------       e--------------------------------

b-------------0---1--------------       b--------------------------------     h=hammer

g--------------------------------       g-------------0---2—2b--2--------     b=bend

d-------2-------------2—0h2------       d--------------------------0-----

a----0---------------------------       a--------3-----------------------

e--------------------------------       e---1----------------------------

 

 

 

Guitar Solo

e----------9-----------------------------------9---------------------------

b---10-----------------------------------10--------------------------------

g------------------11^--------------------------------11^------------------

d--------------------------------------------------------------------------

a--------------------------------------------------------------------------

e--------------------------------------------------------------------------

 

e--------------------------------------------------------------------------

b--------------------------------------------------------------------------

g—(11)-----11---11---11----------11/9--------------------------------------

d------------------------------------------------11--11--------9--11-------

a--------------------------------------------------------------------------

e--------------------------------------------------------------------------

 

e-----------------------------------------------9------12------14----------

b---------------------------------------10---------------------------------

g----9---11^----------9----------------------------------------------------

d---------------------------11---------------------------------------------

a--------------------------------------------------------------------------

e--------------------------------------------------------------------------

 

e—(14)------------------9-----12-------14^------------14-------------------

b-----------------10-------------------------------------------------------

g--------------------------------------------------------------------------

d--------------------------------------------------------------------------

a--------------------------------------------------------------------------

e--------------------------------------------------------------------------

 

e-17---16---14-------------14----------------------------------------------

b---------------------17---------17---14---17---14---14----14--------------

g---------------------------------------------------------16^--16^---------

d--------------------------------------------------------------------------

a--------------------------------------------------------------------------

e--------------------------------------------------------------------------

 

e--------------------------14^-------12----------12------------------------

b--14--------17---14-----------------------14----------14------12----------

g—-16^---------------------------------------------------------------------

d--------------------------------------------------------------------------

a--------------------------------------------------------------------------

e--------------------------------------------------------------------------

 

e-----------12-----10-----9---------

b----10-----------------------------

g-----------------------------------

d-----------------------------------

a-----------------------------------

e-----------------------------------