Welcome to the Double Dare UK tabs pages. We are actually a live pub band performing around Horsham, Sussex, but I have published some of my 600 song tabs on this site for sharing amongst the music community. If you want to copy tabs, simply cut and paste the words off the page and straight into WORD or NOTEPAD. I have worked carefully on many of these TABS to make sure that the chords are shown directly over the words, so the chord change corresponds exactly to the place where you are singing. That means you can play the whole songs straight off the paperwork without having to think about the structure of the song at all. I hope you enjoy these CHORDS, and please check out the many more we have on the SONGS page. Check out my band on the rest of the website too if you are interested...



Hot Chocolate

Emma

 

Verse 1:

A G

We were together since we were five

A G A G

She was so pretty, Emma was a star in everyones eyes

A

And when she said shed be a movie queen, nobody laughed

A G

Her face like an angel, she could be anything

 

Chorus:

A

Emma Emily, Im gonna write your name high on that silver screen Emily

A A

Emma Emily, Im gonna make you the biggest star this world has ever seen

 

Verse 2:

At seventeen we were wed, and worked day and night to earn our daily bread

And every day, Emma would go out searching for that play

that never ever came her way

You know sometimes shed come home, so depressed

Id hear her crying in the back room, feel so distressed

And Id remember back when she was five

To the words that used to make Emily come alive

 

It was

Chorus:

 

It was a cold and dark December night

When I opened the bedroom door

To see her lying still and cold up on the bed

A love letter lying on the bedroom floor, it read

 

Trying no more

Chorus:

 

Darling I love you, but I just cant keep on living on dreams no more

I tried so very hard not to leave you long

I just cant keep on

 

Chorus:

 

Riff 1:

e|--------------------------|--------------------------|
B|-----------------0--1--3--|-3--3--1--1--0--0-1-0-----|
G|-----------0--2-----------|-----------------------2--|
D|--0--2--4-----------------|--------------------------|
A|--------------------------|--------------------------|
E|--------------------------|--------------------------|

e|------------|-------------------------
B|--0---0--1--|--3--3--1--1--0--0-------
G|----2-------|--------------------2-2--
D|------------|-------------------------
A|------------|-------------------------
E|------------|-------------------------


Riff 2:

e|---------------------------|--------------------------
B|--5--5--3--3--2--2-3-2-----|--3--3--2--2--0--0--0-----
G|------------------------4--|-----------------------2--
D|---------------------------|--------------------------
A|---------------------------|--------------------------
E|---------------------------|--------------------------

 

 

 

 

 

define: